O W N
¡Conéctate y ven a divertirte con nosotr@s! :)
Si no estás registrado, hazlo y forma parte de nuestra gran comunidad.
¡La administración ha modificado otra vez el foro, y los Invitados ya pueden ver todas las secciones! Aún así, para comentar y crear temas debes tener una cuenta.

Cualquier duda, queja o sugerencia que quieras darle al staff, éste es nuestro facebook: https://www.facebook.com/onlywebnovels

¡IMPORTANTE!, los Mensajes Privados de los Invitados no serán respondidos por la administración. Te esperamos en nuestro facebook (:

Atte: Staff OnlyWns.
Conectarse

Recuperar mi contraseña

Últimos temas
» the code; audiciones abiertas
Hoy a las 6:43 am por wang.

» trust the unknown
Hoy a las 6:34 am por changkyun.

» Crazy thoughts of a sinister mind
Hoy a las 12:20 am por Andy Belmar.

» cokehq cay {muro interactivo.
Ayer a las 11:05 pm por Asclepio.

» She's Like Cold Coffee
Ayer a las 10:32 pm por Kurisu

» ¿Reclusorio o un Instituto? | Instituto Fénix
Ayer a las 10:18 pm por lovesick

» tropical night.
Ayer a las 9:37 pm por changkyun.

» A house made of cards and us, inside.
Ayer a las 8:17 pm por wang.

» Instituto Fénix | Muro
Ayer a las 8:15 pm por lovesick

novedades

00 . 01 Anuncios del mes febrero.
00 . 02 Actualización del PROTOCOLO, nueva medida obligatoria de avatares.
00 . 03 Remodelación del foro febrero del 2017.
00 . 00 Lorem ipsum dolor sit amet, consectetur adipiscing elit.
administradora
Rumplestiltskin. ϟ Jenn.
miembros del staff
Beta readers
ϟ hypatia.
aka Kate.
MP ϟ Ver perfil.
ϟ dépayser
aka Lea.
MP ϟ Ver perfil.
ϟ youngjae
aka .
MP ϟ Ver perfil.
ϟ Stark.
aka Cande.
MP ϟ Ver perfil.
Equipo de Baneo
ϟ Ariel.
aka Dani.
MP ϟ Ver perfil.
ϟ ceonella.
aka Cami.
MP ϟ Ver perfil.
Equipo de Ayuda
ϟ Ritza.
aka Ems.
MP ϟ Ver perfil.
ϟ Charlie.
aka idk.
MP ϟ Ver perfil.
Equipo de Limpieza
ϟ Legendary.
aka Steph.
MP ϟ Ver perfil.
ϟ chihiro
aka Zoe.
MP ϟ Ver perfil.
ϟ Kurisu
aka Teph.
MP ϟ Ver perfil.
ϟ Calore
aka idk.
MP ϟ Ver perfil.
Equipo de Eventos
ϟ ego.
aka Kalgh/Charlie.
MP ϟ Ver perfil.
ϟ Asclepio.
aka Gina.
MP ϟ Ver perfil.
ϟ mieczyslaw
aka Alec.
MP ϟ Ver perfil.
Equipo de Tutoriales
ϟ Kida.
aka Ally.
MP ϟ Ver perfil.
ϟ Spencer.
aka Angy.
MP ϟ Ver perfil.
Equipo de Diseño
ϟ insxne.
aka Mile.
MP ϟ Ver perfil.
ϟ yoongi.
aka Valu.
MP ϟ Ver perfil.
créditos.
Skin hecho por Hardrock de Captain Knows Best. Personalización del skin por Insxne.

Gráficos por y codes hechos por Kaffei e Insxne.

patience.

Ver el tema anterior Ver el tema siguiente Ir abajo

patience.

Mensaje por ceonella. el Jue 02 Ene 2014, 8:58 pm

[Tienes que estar registrado y conectado para ver esa imagen]
no comentar. guardo acordes o tablaturas que algún día obviamente necesitaré.
said, woman, take it slow and things will be just fine. you and I'll just use a little patience. said, sugar, take the time. 'cause the lights are shining bright, you and i've got what it takes. to make it, we won't fake it, i'll never break it. 'cause i can't take it.


Última edición por vicious. el Mar 17 Jun 2014, 12:07 pm, editado 1 vez
avatar


Ver perfil de usuario http://franceslennon.tumblr.com/
---
---

Volver arriba Ir abajo

Re: patience.

Mensaje por ceonella. el Jue 02 Ene 2014, 9:19 pm


[Tienes que estar registrado y conectado para ver este vínculo]

here:
C G C Em 
d#|--8p7-8--8/10--8----------------------|--8p7--8/10--10/12~~---------|
A#|------------------10/12--10--8h10--8--|-----------------------------|
F#|--------------------------------------|-----------------------------|
C#|--------------------------------------|-----------------------------|
G#|--------------------------------------|-----------------------------|
D#|--------------------------------------|-----------------------------|

C G [D] 
d#|--8p7-8--8/10--8----------------------|--10/12-10-10~~--|---12/14-12---10h12-10~~--|
A#|------------------10/12--10--8h10--8--|-----------------|--------------------------|
F#|--------------------------------------|-----------------|--------------------------|
C#|--------------------------------------|-----------------|--------------------------|
G#|--------------------------------------|-----------------|--------------------------|
D#|--------------------------------------|-----------------|--------------------------|

C G C Em 
d#|-------------------------------------|---------------------7p5-------|
A#|--3/5--5-7--5/3--3-5--3/1--3p5-------|-3/5--5h7-5/3-3-5-7------7p5---|
F#|-------------------------------3-1---|-------------------------------|
C#|-------------------------------------|-------------------------------|
G#|-------------------------------------|-------------------------------|
D#|-------------------------------------|-------------------------------|

C G [D] 
d#|-----------------------------------------------------------------|
A#|--7-8-8/10--10-8-10-8--7---8/10--8-10---8-10--8--10/12--10-10~~--|
F#|-----------------------------------------------------------------|
C#|-----------------------------------------------------------------|
G#|-----------------------------------------------------------------|
D#|-----------------------------------------------------------------|

[D] [D] [D] 
d#|-------------------------|----------------------------|-----------------------------|
A#|--3/5-3-3----------------|---5/8--7-7~~---------------|--5/8-7-7~~--5-7-8-7-5-7~~---|
F#|----------5-3----3-5-----|-------------5-3---3-5------|-----------------------------|
C#|--------------5-------3--|-----------------5------3---|-----------------------------|
G#|-------------------------|----------------------------|-----------------------------|
D#|-------------------------|----------------------------|-----------------------------|


D G D G D G 
d#|--2-----3---------10~~----14~~--|--14-14--12--10-10--8-7--8-8--5--3---|
A#|--3-----3-----------------------|-------------------------------------|
F#|--2-----0-----------------------|-------------------------------------|
C#|--0-----0---3/10----------------|-------------------------------------|
G#|--X-----2-----------------------|-------------------------------------|
D#|--X-----3-----------------------|-------------------------------------|
solo en tablatura de la canción patience de los guns n' roses {link de la canción completa en el nombre} bueno y sí, puede que no se entienda una chota pero yo lo veo fácil así que esta piola igual todavía no lo sé completamente, mp para entender. diez pe la hora de clases de guitarra. ahre


Última edición por vicious. el Mar 17 Jun 2014, 12:08 pm, editado 2 veces
avatar


Ver perfil de usuario http://franceslennon.tumblr.com/
---
---

Volver arriba Ir abajo

Re: patience.

Mensaje por ceonella. el Jue 02 Ene 2014, 9:39 pm


[Tienes que estar registrado y conectado para ver este vínculo]

here:
G
When the night has come
Em
....And the land is dark
C D G
And the moon is the only light we'll see

VERSE TWO
G
No, I won't be afraid,
Em
...No, I won't be afraid
C D G
Just as long, as you stand , stand by me.

CHORUS
G
So,darling, darling, ..stand by me,
Em
...Oh! stand,..by me
C D G
Oh, stand now....stand by me...stand by me

VERSE THREE
G
If the sky that we look upon
Em
...Should tumble and fall
C D G
And the mountains should crumble to the sea,

VERSE FOUR
G
I won't cry, I won't cry,
Em
...No, I won't shed a tear
C D G
Just as long, .as you stand..stand by me.

CHORUS
G
And, darling, darling, .stand by me,
Em
...Oh! stand,..by me
C D G
Oh, stand now.....stand by me....stand by me

CHORUS
G
And, darling, darling, ..stand by me,
Em
...Oh! stand,..by me
C D G
Oh, stand now.....stand by me...stand by me

CHORUS TWO

G
When ever your in trouble won?t you....stand by me
Em
...Oh, Stand...by me
C D G
oh stand .....stand by me ..stand by me......fade
stand by me de john ennon en acordes, {link en el título. bueno loco, este tema es hermoso y saben algo, me duele que haya salido la versión en bachata, sí, repito, bachata. bue. odio ese cover pero este temA ES HERMOSO. de bb. king, el rey del blues, y popularizada por lennon, quien se la dedico a yoko ono unos días después de haber terminado. gracias a este tema volvieron a ser la pareja de amor y paz que siempre fueron. y posta, la re paja editar la canción porque los "...." me tiene las pelotas llenas.


Última edición por vicious. el Mar 17 Jun 2014, 12:11 pm, editado 2 veces
avatar


Ver perfil de usuario http://franceslennon.tumblr.com/
---
---

Volver arriba Ir abajo

Re: patience.

Mensaje por ceonella. el Dom 05 Ene 2014, 7:52 pm


[Tienes que estar registrado y conectado para ver este vínculo]

Spoiler:
INTRO:
GUITARRA:
LAm LAm/Sol LAm/FA# FA
E|----------------|---------------|---------------|------------------|
B|----------1-----|-------------1-|------------1--|-------------3----|
G|----------------|---------------|---------2-----|-----------2---2--|X2
D|-----2-------2--|-------2-------|---------------|------------------|
A|--0-------------|---------------|---------------|------------------|
E|----------------|---3-----------|--2-----------2|-----1------------|


VERSO 1:
LAm LAm/Sol LAm/FA# FA
E|----------------|---------------|---------------|------------------|
B|----------1-----|-------------1-|------------1--|-------------3----|
G|----------------|---------------|---------2-----|-----------2---2--|X7
D|-----2-------2--|-------2-------|---------------|------------------|
A|--0-------------|---------------|---------------|------------------|
E|----------------|---3-----------|--2-----------2|-----1------------|


Am Am/g LAm/F# F (Am Am/g LAm/F# F)
Apretando bien el paquete apuraste fuera ese vaso
Am Am/g LAm/F# F (Am Am/g LAm/F# F)
saliste corriendo a la calle que te estaba llamando
Am Am/g LAm/F# F (Am Am/g LAm/F# F)
'la puta, que feo que fuese sin la margarita
Am Am/g LAm/F# F PUENTE
las sirenas estan sonando y yo sin agua bendita'


PUENTE 1:
LAm LAm/Sol LAm/FA# FA
E|----------------|---------------|---------------|------------------|
B|----------1-----|-------------1-|------------1--|-------------3----|
G|----------------|---------------|---------2-----|-----------2---2--|x3 y despues hce los
D|-----2-------2--|-------2-------|---------------|------------------| acordes pero rasgueando
A|--0-------------|---------------|---------------|------------------| [LAm-Lam/Sol-LAM/FA#-FA]
E|----------------|---3-----------|--2-----------2|-----1------------| X1


GUITARRA 2: (PUNTEO 1)
E|------------------------|-10/-12--7--10/12---------|-8-5----------------|8-5------5-/-7--(17)|
B|-5-/(10)~--/(13)b--(10)-|------------------13-(10)-|-----8------5-/(10)~|---8---5------------|
G|------------------------|--------------------------|-------7/5----------|-----7--------------|
D|------------------------|--------------------------|--------------------|--------------------|
A|------------------------|--------------------------|--------------------|--------------------|
E|------------------------|--------------------------|--------------------|--------------------|

BAJO: entra en la segunda vuelta
G|------------------------------|-------------------------------||
D|------------------------------|-------------------------------||
A|------------------------------|-------------------------------||
E|--/-(5)----(3)----(2)--2--(1)-|--/-(5)----(3)----(2)--2--(1)--||


VERSO 2 :

"La noche te rompe la copa vendiendote ilusiones
dejándote retazos de suños por los rincones fill 1
'pero, nena, tu risa es la magis de los rocanroles
tatuada llevo la marca de tus aguijones".


GUITARRA 1:
[LAm- Lam/Sol- LAM/FA#- FA] X8 (rasgueando)

BAJO:
G|--------|------|----------|------|
D|--------|------|----------|------|X8
A|--------|------|----------|------|
E|---/(5)-|-0-(3)|-5-(2)--2-|(1)---|


GUITARRA 2:
Fill 1
e|------------------------|
B|----/-(10)---------(10)-|
G|-----------12-----------|
D|-------------12-10------|
A|------------------------|
E|------------------------|


ESTRIBILLO 1:

Fa (Am Am/g Lam/F# F)
Curaste todas tus heridas con agua podrida
Fa (Am Am/g Lam/F# F)
Le mentiste al diablo tres veces vendiéndole flores
Am Am/g LAm/F# F (Am Am/g Lam/F# F)
Y te llevaste en andas al angel de los perdedores

GUITARRA 1: ______________X2_____________
e|--------|--------|-----|--------|-------|------|--|-----|--------|-------|------|
B|--------|--------|-----|--------|-------|------|--|-----|--------|-------|------|
G|---FA---|-FA-----|-LAm-|Lam/Sol-|LAM/FA#|-FA---|X2|-LAm-|Lam/Sol-|LAM/FA#|-FA---|
D|--------|--------|-----|--------|-------|------|--|-----|--------|-------|------|
A|--------|--------|-----|--------|-------|------|--|-----|--------|-------|------|
E|--------|--------|-----|--------|-------|------|--|-----|--------|-------|------|

BAJO: FA LA SOl FA# FA ______________X2_____________
G|-------------------|--------|------|----------|---|--|--------|------|----------|------|
D|-------------------|--------|------|----------|---|X2|--------|------|----------|------|
A|-------------------|--------|------|----------|---|--|--------|------|----------|------|
E|--(1)---(1)---1111-|---/(5)-|-0-(3)|-5-(2)--2-|(1)|--|---/(5)-|-0-(3)|-5-(2)--2-|(1)---|

GUITARRA 2: FA
e|---------------|-----|--------|-------|------|--|-12-------|--------------------|
B|--/(6)----/(6)-|-----|--------|-------|------|--|---13b----|-13-----------------|
G|---------------|-LAm-|Lam/Sol-|LAM/FA#|-FA---|X2|------(14)|----14-12-----------|
D|---------------|-----|--------|-------|------|--|----------|----------14--------|
A|---------------|-----|--------|-------|------|--|----------|--------------------|
E|---------------|-----|--------|-------|------|--|----------|--------------------|


SOLO DE GUITARRA:

GUITARRA 1: [LAm-Lam/Sol-LAM/FA#-FA] X8

BAJO: LA SOL FA# FA
G|--------|------|----------|------|
D|--------|------|----------|------|X8
A|--------|------|----------|------|
E|---/(5)-|-0-(3)|-5-(2)--2-|(1)---|

GUITARRA 2:
e|---------|-----8-----7----(5)-|------12----10----8--/5--(5)-|-----------------|---------------|
B|---------|----------------(5)-|-----------------------------|-----------------|-15b-13----15b-|
G|-12/(14)-|-5/8-----7----5-----|-9/12----10----8-----/5------|-7b-5---7br-5----|--------14-----|
D|---------|--------------------|-----------------------------|------7------(7)-|---------------|
A|---------|--------------------|-----------------------------|-----------------|---------------|
E|---------|--------------------|-----------------------------|-----------------|---------------|

e|------------|----------------------------------------------------|-----8-----7------(5)-|
B|-13h15------|--15b-13----17b-(17)-17-(17)----13-15-15b-13h15-----|------------------(5)-|
G|-------(14)-|---------14------------------14----------------(14)-|-5/8-----7----5-------|
D|------------|----------------------------------------------------|----------------------|
A|------------|----------------------------------------------------|----------------------|
E|------------|----------------------------------------------------|----------------------|

e|------12----10----8--/5--(5)-|
B|-----------------------------|
G|-9/12----10----8-----/5------|
D|-----------------------------|
A|-----------------------------|
E|-----------------------------|


VERSO 3: (Igual)

Escondistes todos tus recuerdos en una guarida
jurando que nunca dirias alguna mentira
Pero vienes de esos callejones que funden alcoholes
Donde solo campeonan los peores



REPITE ESTRIBILLO (igual)


Fa (Am Am/g Lam/F# F)
Curaste todas tus heridas con agua podrida
Fa (Am Am/g Lam/F# F)
Le mentiste al diablo tres veces vendiéndole flores
Am Am/g LAm/F# F (Am Am/g Lam/F# F)
Y te llevaste en andas al angel de los perdedores
el vídeo es un cover de esta canción cual me gusta mucho, no el la original, es un cover de la canción del indio solari. jep. bueno, el tema me gusta mucho, sin dudas es parte de lo que sería rock nacional pero ké, me gusta mucho y es fácil así que, gugu tata.


Última edición por vicious. el Mar 17 Jun 2014, 12:13 pm, editado 4 veces
avatar


Ver perfil de usuario http://franceslennon.tumblr.com/
---
---

Volver arriba Ir abajo

Re: patience.

Mensaje por ceonella. el Miér 08 Ene 2014, 9:08 pm


[Tienes que estar registrado y conectado para ver este vínculo]

Spoiler:
intro: [Tienes que estar registrado y conectado para ver este vínculo] [Tienes que estar registrado y conectado para ver este vínculo] [5x]

[Tienes que estar registrado y conectado para ver este vínculo] [Tienes que estar registrado y conectado para ver este vínculo]
Hello there, the angel from my nightmare
[Tienes que estar registrado y conectado para ver este vínculo] [Tienes que estar registrado y conectado para ver este vínculo]
The shadow in the background of the morgue
[Tienes que estar registrado y conectado para ver este vínculo] [Tienes que estar registrado y conectado para ver este vínculo]
The unsuspecting victim of darkness in the valley
[Tienes que estar registrado y conectado para ver este vínculo] [Tienes que estar registrado y conectado para ver este vínculo]
We can live like Jack and Sally if we want
[Tienes que estar registrado y conectado para ver este vínculo]
Where you can always find me
[Tienes que estar registrado y conectado para ver este vínculo]
We'll have Halloween on Christmas
[Tienes que estar registrado y conectado para ver este vínculo] [Tienes que estar registrado y conectado para ver este vínculo]
And in the night we'll wish this never ends
[Tienes que estar registrado y conectado para ver este vínculo]
We'll wish this never ends

[Tienes que estar registrado y conectado para ver este vínculo] [Tienes que estar registrado y conectado para ver este vínculo] [Tienes que estar registrado y conectado para ver este vínculo] [Tienes que estar registrado y conectado para ver este vínculo] [Tienes que estar registrado y conectado para ver este vínculo] [I miss you miss you]
[Tienes que estar registrado y conectado para ver este vínculo] [Tienes que estar registrado y conectado para ver este vínculo] [Tienes que estar registrado y conectado para ver este vínculo] [Tienes que estar registrado y conectado para ver este vínculo] [Tienes que estar registrado y conectado para ver este vínculo] [I miss you miss you]

[Tienes que estar registrado y conectado para ver este vínculo] [Tienes que estar registrado y conectado para ver este vínculo]
Where are you and I'm so sorry
[Tienes que estar registrado y conectado para ver este vínculo] [Tienes que estar registrado y conectado para ver este vínculo]
I cannot sleep I cannot dream tonight
[Tienes que estar registrado y conectado para ver este vínculo]
I need somebody and always
[Tienes que estar registrado y conectado para ver este vínculo]
This sick strange darkness
[Tienes que estar registrado y conectado para ver este vínculo] [Tienes que estar registrado y conectado para ver este vínculo]
Comes creeping on so haunting every time
[Tienes que estar registrado y conectado para ver este vínculo]
And as I stared I counted
[Tienes que estar registrado y conectado para ver este vínculo]
Webs from all the spiders
[Tienes que estar registrado y conectado para ver este vínculo] [Tienes que estar registrado y conectado para ver este vínculo]
Catching things and eating their insides
[Tienes que estar registrado y conectado para ver este vínculo]
Like indecision to call you
[Tienes que estar registrado y conectado para ver este vínculo]
and hear your voice of treason
[Tienes que estar registrado y conectado para ver este vínculo] [Tienes que estar registrado y conectado para ver este vínculo]
Will you come home and stop this pain tonight
[Tienes que estar registrado y conectado para ver este vínculo]
Stop this pain tonight

[Tienes que estar registrado y conectado para ver este vínculo] [Tienes que estar registrado y conectado para ver este vínculo]
Don't waste your time on me you're already
[Tienes que estar registrado y conectado para ver este vínculo] [Tienes que estar registrado y conectado para ver este vínculo]
The voice inside my head [miss you miss you]

[Tienes que estar registrado y conectado para ver este vínculo] [Tienes que estar registrado y conectado para ver este vínculo]
Don't waste your time on me you're already
[Tienes que estar registrado y conectado para ver este vínculo] [Tienes que estar registrado y conectado para ver este vínculo]
The voice inside my head [miss you miss you]

2x [Tienes que estar registrado y conectado para ver este vínculo] [Tienes que estar registrado y conectado para ver este vínculo] [Tienes que estar registrado y conectado para ver este vínculo] [Tienes que estar registrado y conectado para ver este vínculo] enquanto [[Tienes que estar registrado y conectado para ver este vínculo] /s [Tienes que estar registrado y conectado para ver este vínculo]]

[Tienes que estar registrado y conectado para ver este vínculo] [Tienes que estar registrado y conectado para ver este vínculo]
Don't waste your time on me you're already
[Tienes que estar registrado y conectado para ver este vínculo] [Tienes que estar registrado y conectado para ver este vínculo]
The voice inside my head [I miss you miss you]

[Tienes que estar registrado y conectado para ver este vínculo] [Tienes que estar registrado y conectado para ver este vínculo]
Don't waste your time on me you're already
[Tienes que estar registrado y conectado para ver este vínculo] [Tienes que estar registrado y conectado para ver este vínculo]
The voice inside my head [I miss you miss you]
esta canción es muy bajativa, no me responsabilizo de cortes(?)ahre que no. bueno, este tema es uno de los más conocidos por parte de blink, no es mi favorito pero es conocido y muy fácil y piolanga. aguante adam's song pero paja viteh.


Última edición por vicious. el Mar 17 Jun 2014, 12:15 pm, editado 2 veces
avatar


Ver perfil de usuario http://franceslennon.tumblr.com/
---
---

Volver arriba Ir abajo

Re: patience.

Mensaje por ceonella. el Lun 20 Ene 2014, 5:37 pm


[Tienes que estar registrado y conectado para ver este vínculo]

Spoiler:

A
Well, that's alright, mama
A
That's alright for you
A                     A7
That's alright mama, just anyway you do
A7             D
Well, that's alright, that's alright.
D         E[7]            A
That's alright now mama, anyway you do

Mama she done told me,
Papa done told me too
'Son, that gal your foolin' with,
She ain't no good for you'
But, that's alright, that's alright.
That's alright now mama, anyway you do

I'm leaving town, baby
I'm leaving town for sure
Well, then you wont be bothered with
Me hanging 'round your door
Well, that's alright, that's alright.
That's alright now mama, anyway you do

esta canción es es perfecta, me encanta, la amo(?) considerada una de las primeras canciones de rock en la historia del jodido rock, un hito en esa historia and well, es genial y además muy fácil, me cuesta el ritmo y el solo, bt me encanta. esta versionada por muchos artistas, pero la más conocida es originalmente por elvis.


Última edición por vicious. el Mar 17 Jun 2014, 12:16 pm, editado 2 veces
avatar


Ver perfil de usuario http://franceslennon.tumblr.com/
---
---

Volver arriba Ir abajo

Re: patience.

Mensaje por ceonella. el Mar 21 Ene 2014, 10:09 pm


[Tienes que estar registrado y conectado para ver este vínculo]

here:

Intro:
E|---------12--12--10-------12--12--10--------------
B|--9--12---------------12--------------12--10------
G|----------------------------------------------11--
D|--------------------------------------------------
A|--------------------------------------------------
E|--------------------------------------------------

E
In spite of all the danger
In spite of all that may be
A                          B7
I'll do anything for you, anything you want me to
E            A           E
If you'll be true to me

E
In spite of all the heartaches
That you made for me
A B7
I'll do anything for you, anything you want me to
E A E
If you'll be true to me

A
I'll look after you
E
Like I've never done before
A
I'll keep all these others
B7 (1 strum)
From knockin' at your door
Solo:
E|---------12--12--10------12--12----------12--12--10------12--12---------12--12--10------12--12--10------12--
B|--9-12---------------12-----------9--12--------------12----------9--12--------------12--------------12------
G|------------------------------------------------------------------------------------------------------------
D|------------------------------------------------------------------------------------------------------------
A|------------------------------------------------------------------------------------------------------------
E|------------------------------------------------------------------------------------------------------------

E|--10------12--10------12--10------12--10------15--15--14--12--15--15--14--12--15--15--14--12--15--15--14--12-
B|------12----------12----------12----------12-----------------------------------------------------------------
G|-------------------------------------------------------------------------------------------------------------
D|-------------------------------------------------------------------------------------------------------------
A|-------------------------------------------------------------------------------------------------------------
E|-------------------------------------------------------------------------------------------------------------

E|--12--12--12--10------12--12--10------12--10------12--10------12--10------12--10-------------12--12--12--12--
B|------------------12--------------12----------12----------12----------12----------12--10---------------------
G|------------------------------------------------------------------------------------------11-----------------
D|-------------------------------------------------------------------------------------------------------------
A|-------------------------------------------------------------------------------------------------------------
E|-------------------------------------------------------------------------------------------------------------

E|--12--12------12--10------12--10------12--10-----12--10------------------------------------------------------
B|----------12----------12----------12----------12---------12--10----------------------------------------------
G|-----------------------------------------------------------------11------------------------------------------
D|-------------------------------------------------------------------------------------------------------------
A|-------------------------------------------------------------------------------------------------------------
E|-------------------------------------------------------------------------------------------------------------
I'll do anything for you, anything you want me to If you'll be true to me
la primera canción de the quarryman, antigua banda que tres integrantes de los beatles. la canción es hermosa, y es muy fácil salvo el solo cual son casi los mismos trastes que en la introducción, pero aún así tiene que ser seguido y rápido. y qsyo, tomo la sopa con tenedor.
avatar


Ver perfil de usuario http://franceslennon.tumblr.com/
---
---

Volver arriba Ir abajo

Re: patience.

Mensaje por ceonella. el Mar 17 Jun 2014, 12:23 pm


[Tienes que estar registrado y conectado para ver este vínculo]

here:

Tono: C
Am F
Want to have her two years have gone now but I can't relate to the never
Em F
ending games that you play. As desire passes through then you'll open to
Em
the truth I hope you understand

Am F Am F Em
and your love is standing next to me is standing next to me

Am F
The one you fell for makes it seen juvenile and you'll laugh at yourself
Em F
again and again. And we'll drink to the thoughts she'll remember you maybe
Em
tomorrow

Am F Am F Em Am
and your love is standing next to me is standing next to me and your love
F Dm Em Am F Dm
standing next to me is standing next to me is standing next to me is
Em Dm
standing next to me

E|-5------------------------------------------------------|
B|-6------------------------------------------------------|
G|-7------------------------------------------------------|
D|-7----7--9--10--9----9--10--12--14--9-9-9--12--9-9-9----|
A|-5------------------------------------------------------|
E|--------------------------------------------------------|

E|------------------------------------------------------------------------|
B|------------------------------------------------------------------------|
G|---------------------------------9--7------------------9-7--------------|
D|-14--9-9-9--12--14-12-10------7----------7----9--10--9--------7--9--10--|
A|---------------------------10---------10-------------------10-----------|
E|------------------------------------------------------------------------|

E|---------------------------------------------------------5------|
B|---------------------------------------------------------5------|
G|---------------------------------------------------------5------|
D|---------------------12--14--12--12-12-12-12--9--9-9-7---7------|
A|-14--14-14-14-14-----------------------------------------7------|
E|---------------------------------------------------------5------|

Am F
Want to have her two hears have gone now but I can't relate to the never
Em F
ending games that you play. As desire passes through then you'll open to
Em
the truth I hope you understand

Am F Dm Em Am F
and your love is standing next to me is standing next to me is standing
Dm Em Am Am
next to me is standing next to me
bueno todo re piola. la cosa es que los acordes se me mueven la concha pero bueno, el tema es fácil, salvo la primera parte pero eso, sopa y polenta.
avatar


Ver perfil de usuario http://franceslennon.tumblr.com/
---
---

Volver arriba Ir abajo

Re: patience.

Mensaje por Contenido patrocinado

Contenido patrocinado



Volver arriba Ir abajo

Ver el tema anterior Ver el tema siguiente Volver arriba


Permisos de este foro:
No puedes responder a temas en este foro.